Skip to content

Maria Magenta – Donovan

04/09/2010

Remember when T-Mobile tried to copyright Magenta? I wonder if they had anything against this song.

    F
Maria Magenta

Scarlet OHara
C
Henna ma honey
D#  C   A#  C
You are the one
   F
Ma silver moon lady

She like a choir boy
C
Hair all a-cloudy
    D# C   A#  C
And flying and real

CHORUS

  A#               chorus riff 1
A halo a sky gold
  F                chorus riff 2
A moon on the water
  A#               chorus riff 1
A scuddy go cloud
 F
Aroundy the sky bowl
C
Henna ma honey
D#  C   A#  C
You are the one

My copper go-go-girl
She like a show girl
Delightful Dolores
Ma Anna Belinda
Rain on the window
Maggie yer reggae
You move me along

  Repeat chorus

  Solo

  Repeat Chorus

Chorus riff 1
A#                               F
             E----------------------
             B-2-1----2-1----2-1----
             G-----3-----3-------3--
    ...gold                    a moon...

Chorus riff 2
E------------
B------------
G-5-4-3--2---
D-7-6-5--3---
A------------
E------------

Solo riff
   F                   C
E-----------------------------------
B-1---3-1-----------------1-1-0-----
G---------3-2--------------------3--
D----------------2-0----------------
A--------------------3-2------------
E-----------------------------------
Transcribed by Dawidsu (Dave)
Advertisements
No comments yet

Leave a Reply

Fill in your details below or click an icon to log in:

WordPress.com Logo

You are commenting using your WordPress.com account. Log Out / Change )

Twitter picture

You are commenting using your Twitter account. Log Out / Change )

Facebook photo

You are commenting using your Facebook account. Log Out / Change )

Google+ photo

You are commenting using your Google+ account. Log Out / Change )

Connecting to %s

%d bloggers like this: