Skip to content

Wilbury Riffs

04/09/2010

Here are the riffs for Wilbury Twist and Poor House. Enjoy!

Wilbury Twist

It sounds best if you have a few friends, who start to play this riff one by one until you sound like the whole Wilbury band together.

--------------------------------
-7s8-8-6-6----------------------
------------7-7-5-5-------------
---------------------8-8-5-5----
--------------------------------
--------------------------------

Poor House

INTRO RIFF
--3--5--8--5------------3--5--8--5------------
-------------3--5--8--5-------------3~5-3-1-1-
----------------------------------------------
----------------------------------------------
----------------------------------------------
----------------------------------------------

RIFF APPEARING BEFORE SOLO AND AT THE END
--3--5--8--5--12--10--8--12--3--5--8--5------------
-----------------------------------------3~5-3-1-1-
---------------------------------------------------
---------------------------------------------------
---------------------------------------------------
---------------------------------------------------
Advertisements
No comments yet

Leave a Reply

Fill in your details below or click an icon to log in:

WordPress.com Logo

You are commenting using your WordPress.com account. Log Out / Change )

Twitter picture

You are commenting using your Twitter account. Log Out / Change )

Facebook photo

You are commenting using your Facebook account. Log Out / Change )

Google+ photo

You are commenting using your Google+ account. Log Out / Change )

Connecting to %s

%d bloggers like this: